ISO-10303-21;
HEADER;
FILE_DESCRIPTION (( 'STEP AP203' ),
    '1' );
FILE_NAME ('BK7-LPBSC-20-1550.STEP',
    '2020-12-22T03:12:46',
    ( '' ),
    ( '' ),
    'SwSTEP 2.0',
    'SolidWorks 2020',
    '' );
FILE_SCHEMA (( 'CONFIG_CONTROL_DESIGN' ));
ENDSEC;

DATA;
#1 =( NAMED_UNIT ( * ) PLANE_ANGLE_UNIT ( ) SI_UNIT ( $, .RADIAN. ) );
#2 = EDGE_CURVE ( 'NONE', #287, #100, #125, .T. ) ;
#3 = LINE ( 'NONE', #108, #135 ) ;
#4 = PERSON_AND_ORGANIZATION ( #101, #83 ) ;
#5 = APPROVAL_DATE_TIME ( #314, #159 ) ;
#6 = AXIS2_PLACEMENT_3D ( 'NONE', #155, #129, #77 ) ;
#7 = PERSON_AND_ORGANIZATION ( #101, #83 ) ;
#8 = EDGE_LOOP ( 'NONE', ( #218, #210, #291, #34 ) ) ;
#9 = COORDINATED_UNIVERSAL_TIME_OFFSET ( 8, 0, .AHEAD. ) ;
#10 = ORIENTED_EDGE ( 'NONE', *, *, #104, .F. ) ;
#11 = ORIENTED_EDGE ( 'NONE', *, *, #254, .F. ) ;
#12 = DIRECTION ( 'NONE',  ( -0.000000000000000000, 0.000000000000000000, 1.000000000000000000 ) ) ;
#13 = CALENDAR_DATE ( 2020, 22, 12 ) ;
#14 = ORIENTED_EDGE ( 'NONE', *, *, #298, .T. ) ;
#15 = CARTESIAN_POINT ( 'NONE',  ( -9.999999999999998224, -10.00000000000000000, 10.00000000000000000 ) ) ;
#16 = AXIS2_PLACEMENT_3D ( 'NONE', #43, #12, #146 ) ;
#17 = PLANE ( 'NONE',  #82 ) ;
#18 = DIRECTION ( 'NONE',  ( 1.000000000000000000, -2.220446049250313081E-16, 0.000000000000000000 ) ) ;
#19 = DIRECTION ( 'NONE',  ( -0.000000000000000000, 0.000000000000000000, 1.000000000000000000 ) ) ;
#20 = CARTESIAN_POINT ( 'NONE',  ( -10.00000000000000178, -9.999999999999996447, 10.00000000000000000 ) ) ;
#21 = EDGE_CURVE ( 'NONE', #64, #141, #228, .T. ) ;
#22 = CARTESIAN_POINT ( 'NONE',  ( 10.00000000000000178, -10.00000000000000000, 10.00000000000000000 ) ) ;
#23 = FACE_OUTER_BOUND ( 'NONE', #59, .T. ) ;
#24 = AXIS2_PLACEMENT_3D ( 'NONE', #257, #52, #302 ) ;
#25 = CARTESIAN_POINT ( 'NONE',  ( -10.00000000000000178, -9.999999999999996447, -10.00000000000000000 ) ) ;
#26 = FACE_OUTER_BOUND ( 'NONE', #89, .T. ) ;
#27 = PRODUCT_DEFINITION ( 'UNKNOWN', '', #229, #143 ) ;
#28 = LINE ( 'NONE', #232, #147 ) ;
#29 = CARTESIAN_POINT ( 'NONE',  ( -9.999999999999998224, 10.00000000000000355, 10.00000000000000000 ) ) ;
#30 = ADVANCED_FACE ( 'NONE', ( #177 ), #202, .T. ) ;
#31 = APPROVAL_STATUS ( 'not_yet_approved' ) ;
#32 = AXIS2_PLACEMENT_3D ( 'NONE', #122, #217, #223 ) ;
#33 = PERSON_AND_ORGANIZATION_ROLE ( 'design_supplier' ) ;
#34 = ORIENTED_EDGE ( 'NONE', *, *, #150, .T. ) ;
#35 = UNCERTAINTY_MEASURE_WITH_UNIT (LENGTH_MEASURE( 1.000000000000000082E-05 ), #276, 'distance_accuracy_value', 'NONE');
#36 = AXIS2_PLACEMENT_3D ( 'NONE', #132, #75, #236 ) ;
#37 = VERTEX_POINT ( 'NONE', #252 ) ;
#38 = CC_DESIGN_DATE_AND_TIME_ASSIGNMENT ( #304, #56, ( #315 ) ) ;
#39 = CARTESIAN_POINT ( 'NONE',  ( -10.00000000000000178, -9.999999999999996447, 10.00000000000000000 ) ) ;
#40 = DIRECTION ( 'NONE',  ( -0.000000000000000000, -0.000000000000000000, -1.000000000000000000 ) ) ;
#41 = EDGE_LOOP ( 'NONE', ( #61, #241, #311 ) ) ;
#42 = DIRECTION ( 'NONE',  ( 0.000000000000000000, 0.000000000000000000, 1.000000000000000000 ) ) ;
#43 = CARTESIAN_POINT ( 'NONE',  ( 0.000000000000000000, 0.000000000000000000, 10.00000000000000000 ) ) ;
#44 = VECTOR ( 'NONE', #47, 1000.000000000000000 ) ;
#45 = LINE ( 'NONE', #66, #162 ) ;
#46 = EDGE_CURVE ( 'NONE', #64, #71, #145, .T. ) ;
#47 = DIRECTION ( 'NONE',  ( -0.000000000000000000, 1.000000000000000000, -0.000000000000000000 ) ) ;
#48 = ORIENTED_EDGE ( 'NONE', *, *, #251, .T. ) ;
#49 = LINE ( 'NONE', #205, #126 ) ;
#50 = CARTESIAN_POINT ( 'NONE',  ( 10.00000000000000000, 10.00000000000000000, 10.00000000000000000 ) ) ;
#51 = CARTESIAN_POINT ( 'NONE',  ( 10.00000000000000000, 10.00000000000000000, -10.00000000000000000 ) ) ;
#52 = DIRECTION ( 'NONE',  ( 0.000000000000000000, -0.000000000000000000, 1.000000000000000000 ) ) ;
#53 = PLANE ( 'NONE',  #36 ) ;
#54 = LOCAL_TIME ( 11, 12, 46.00000000000000000, #9 ) ;
#55 = EDGE_CURVE ( 'NONE', #139, #271, #321, .T. ) ;
#56 = DATE_TIME_ROLE ( 'classification_date' ) ;
#57 = MANIFOLD_SOLID_BREP ( '¾µÏ', #262 ) ;
#58 = LOCAL_TIME ( 11, 12, 46.00000000000000000, #237 ) ;
#59 = EDGE_LOOP ( 'NONE', ( #275, #95, #138, #200 ) ) ;
#60 = ORIENTED_EDGE ( 'NONE', *, *, #21, .T. ) ;
#61 = ORIENTED_EDGE ( 'NONE', *, *, #259, .F. ) ;
#62 = DIRECTION ( 'NONE',  ( -0.7071067811865474617, 0.7071067811865475727, 0.000000000000000000 ) ) ;
#63 = VECTOR ( 'NONE', #81, 1000.000000000000000 ) ;
#64 = VERTEX_POINT ( 'NONE', #168 ) ;
#65 = SECURITY_CLASSIFICATION_LEVEL ( 'unclassified' ) ;
#66 = CARTESIAN_POINT ( 'NONE',  ( 10.00000000000000178, 9.999999999999998224, -10.00000000000000000 ) ) ;
#67 = PERSON_AND_ORGANIZATION_ROLE ( 'creator' ) ;
#68 = ADVANCED_FACE ( 'NONE', ( #203 ), #17, .F. ) ;
#69 = CARTESIAN_POINT ( 'NONE',  ( 0.000000000000000000, 0.000000000000000000, -10.00000000000000000 ) ) ;
#70 = FACE_OUTER_BOUND ( 'NONE', #301, .T. ) ;
#71 = VERTEX_POINT ( 'NONE', #247 ) ;
#72 = LINE ( 'NONE', #121, #88 ) ;
#73 = CARTESIAN_POINT ( 'NONE',  ( 10.00000000000000000, 10.00000000000000000, 10.00000000000000000 ) ) ;
#74 = CARTESIAN_POINT ( 'NONE',  ( 10.00000000000000178, -10.00000000000000000, -10.00000000000000000 ) ) ;
#75 = DIRECTION ( 'NONE',  ( -1.000000000000000000, 0.000000000000000000, 0.000000000000000000 ) ) ;
#76 = LINE ( 'NONE', #224, #93 ) ;
#77 = DIRECTION ( 'NONE',  ( 0.000000000000000000, 0.000000000000000000, 1.000000000000000000 ) ) ;
#78 = ORIENTED_EDGE ( 'NONE', *, *, #2, .F. ) ;
#79 = CLOSED_SHELL ( 'NONE', ( #288, #115, #242, #110, #84 ) ) ;
#80 = CARTESIAN_POINT ( 'NONE',  ( 10.00000000000000178, -10.00000000000000000, 10.00000000000000000 ) ) ;
#81 = DIRECTION ( 'NONE',  ( -0.000000000000000000, 0.000000000000000000, -1.000000000000000000 ) ) ;
#82 = AXIS2_PLACEMENT_3D ( 'NONE', #73, #62, #278 ) ;
#83 = ORGANIZATION ( 'UNSPECIFIED', 'UNSPECIFIED', '' ) ;
#84 = ADVANCED_FACE ( 'NONE', ( #198 ), #268, .F. ) ;
#85 = CARTESIAN_POINT ( 'NONE',  ( 0.000000000000000000, 0.000000000000000000, 0.000000000000000000 ) ) ;
#86 = EDGE_CURVE ( 'NONE', #271, #141, #45, .T. ) ;
#87 = ORIENTED_EDGE ( 'NONE', *, *, #225, .T. ) ;
#88 = VECTOR ( 'NONE', #18, 1000.000000000000000 ) ;
#89 = EDGE_LOOP ( 'NONE', ( #216, #318, #166, #87 ) ) ;
#90 = VERTEX_POINT ( 'NONE', #171 ) ;
#91 = CC_DESIGN_PERSON_AND_ORGANIZATION_ASSIGNMENT ( #137, #109, ( #315 ) ) ;
#92 = CARTESIAN_POINT ( 'NONE',  ( 10.00000000000000178, 9.999999999999998224, 10.00000000000000000 ) ) ;
#93 = VECTOR ( 'NONE', #96, 1000.000000000000000 ) ;
#94 = ORIENTED_EDGE ( 'NONE', *, *, #46, .F. ) ;
#95 = ORIENTED_EDGE ( 'NONE', *, *, #150, .F. ) ;
#96 = DIRECTION ( 'NONE',  ( 1.000000000000000000, 0.000000000000000000, 0.000000000000000000 ) ) ;
#97 = CC_DESIGN_PERSON_AND_ORGANIZATION_ASSIGNMENT ( #144, #309, ( #204 ) ) ;
#98 = ORIENTED_EDGE ( 'NONE', *, *, #254, .T. ) ;
#99 = LINE ( 'NONE', #15, #292 ) ;
#100 = VERTEX_POINT ( 'NONE', #149 ) ;
#101 = PERSON ( 'UNSPECIFIED', 'UNSPECIFIED', 'UNSPECIFIED', ('UNSPECIFIED'), ('UNSPECIFIED'), ('UNSPECIFIED') ) ;
#102 = AXIS2_PLACEMENT_3D ( 'NONE', #20, #127, #151 ) ;
#103 = ORIENTED_EDGE ( 'NONE', *, *, #235, .F. ) ;
#104 = EDGE_CURVE ( 'NONE', #100, #199, #123, .T. ) ;
#105 = CARTESIAN_POINT ( 'NONE',  ( 10.00000000000000000, 10.00000000000000000, -10.00000000000000000 ) ) ;
#106 = CARTESIAN_POINT ( 'NONE',  ( -10.00000000000000178, -9.999999999999996447, 10.00000000000000000 ) ) ;
#107 = CC_DESIGN_APPROVAL ( #133, ( #27 ) ) ;
#108 = CARTESIAN_POINT ( 'NONE',  ( 10.00000000000000000, 10.00000000000000000, 10.00000000000000000 ) ) ;
#109 = PERSON_AND_ORGANIZATION_ROLE ( 'classification_officer' ) ;
#110 = ADVANCED_FACE ( 'NONE', ( #174 ), #244, .T. ) ;
#111 = AXIS2_PLACEMENT_3D ( 'NONE', #85, #42, #306 ) ;
#112 = SHAPE_DEFINITION_REPRESENTATION ( #227, #215 ) ;
#113 = DATE_AND_TIME ( #188, #282 ) ;
#114 = ORIENTED_EDGE ( 'NONE', *, *, #298, .F. ) ;
#115 = ADVANCED_FACE ( 'NONE', ( #226 ), #117, .F. ) ;
#116 = ORIENTED_EDGE ( 'NONE', *, *, #124, .T. ) ;
#117 = PLANE ( 'NONE',  #32 ) ;
#118 = MECHANICAL_CONTEXT ( 'NONE', #158, 'mechanical' ) ;
#119 = DIRECTION ( 'NONE',  ( -0.000000000000000000, 1.000000000000000000, -0.000000000000000000 ) ) ;
#120 = AXIS2_PLACEMENT_3D ( 'NONE', #319, #299, #148 ) ;
#121 = CARTESIAN_POINT ( 'NONE',  ( 10.00000000000000000, 10.00000000000000000, -10.00000000000000000 ) ) ;
#122 = CARTESIAN_POINT ( 'NONE',  ( -9.999999999999998224, -10.00000000000000000, 10.00000000000000000 ) ) ;
#123 = LINE ( 'NONE', #39, #260 ) ;
#124 = EDGE_CURVE ( 'NONE', #71, #139, #28, .T. ) ;
#125 = LINE ( 'NONE', #295, #131 ) ;
#126 = VECTOR ( 'NONE', #253, 1000.000000000000000 ) ;
#127 = DIRECTION ( 'NONE',  ( 1.000000000000000000, -2.220446049250313081E-16, 0.000000000000000000 ) ) ;
#128 = FACE_OUTER_BOUND ( 'NONE', #308, .T. ) ;
#129 = DIRECTION ( 'NONE',  ( -2.220446049250313081E-16, -1.000000000000000000, 0.000000000000000000 ) ) ;
#130 = DIRECTION ( 'NONE',  ( 1.000000000000000000, 0.000000000000000000, 0.000000000000000000 ) ) ;
#131 = VECTOR ( 'NONE', #274, 1000.000000000000000 ) ;
#132 = CARTESIAN_POINT ( 'NONE',  ( 10.00000000000000178, 9.999999999999998224, 10.00000000000000000 ) ) ;
#133 = APPROVAL ( #272, 'UNSPECIFIED' ) ;
#134 = APPROVAL_ROLE ( '' ) ;
#135 = VECTOR ( 'NONE', #207, 1000.000000000000000 ) ;
#136 = DATE_AND_TIME ( #285, #238 ) ;
#137 = PERSON_AND_ORGANIZATION ( #101, #83 ) ;
#138 = ORIENTED_EDGE ( 'NONE', *, *, #104, .T. ) ;
#139 = VERTEX_POINT ( 'NONE', #80 ) ;
#140 = VECTOR ( 'NONE', #152, 1000.000000000000000 ) ;
#141 = VERTEX_POINT ( 'NONE', #182 ) ;
#142 = CARTESIAN_POINT ( 'NONE',  ( 10.00000000000000178, 9.999999999999998224, 10.00000000000000000 ) ) ;
#143 = DESIGN_CONTEXT ( 'detailed design', #192, 'design' ) ;
#144 = PERSON_AND_ORGANIZATION ( #101, #83 ) ;
#145 = LINE ( 'NONE', #142, #187 ) ;
#146 = DIRECTION ( 'NONE',  ( 1.000000000000000000, 0.000000000000000000, 0.000000000000000000 ) ) ;
#147 = VECTOR ( 'NONE', #130, 1000.000000000000000 ) ;
#148 = DIRECTION ( 'NONE',  ( 0.7071067811865475727, 0.7071067811865474617, 0.000000000000000000 ) ) ;
#149 = CARTESIAN_POINT ( 'NONE',  ( -10.00000000000000178, -9.999999999999996447, 10.00000000000000000 ) ) ;
#150 = EDGE_CURVE ( 'NONE', #100, #243, #184, .T. ) ;
#151 = DIRECTION ( 'NONE',  ( 0.000000000000000000, 0.000000000000000000, 1.000000000000000000 ) ) ;
#152 = DIRECTION ( 'NONE',  ( -0.000000000000000000, -0.000000000000000000, -1.000000000000000000 ) ) ;
#153 = DIRECTION ( 'NONE',  ( 2.220446049250313081E-16, 1.000000000000000000, 0.000000000000000000 ) ) ;
#154 = APPROVAL_PERSON_ORGANIZATION ( #208, #133, #134 ) ;
#155 = CARTESIAN_POINT ( 'NONE',  ( 10.00000000000000000, 10.00000000000000000, 10.00000000000000000 ) ) ;
#156 = APPROVAL ( #170, 'UNSPECIFIED' ) ;
#157 = PLANE ( 'NONE',  #6 ) ;
#158 = APPLICATION_CONTEXT ( 'configuration controlled 3d designs of mechanical parts and assemblies' ) ;
#159 = APPROVAL ( #31, 'UNSPECIFIED' ) ;
#160 = CALENDAR_DATE ( 2020, 22, 12 ) ;
#161 = APPROVAL_ROLE ( '' ) ;
#162 = VECTOR ( 'NONE', #119, 1000.000000000000000 ) ;
#163 = COORDINATED_UNIVERSAL_TIME_OFFSET ( 8, 0, .AHEAD. ) ;
#164 = CC_DESIGN_DATE_AND_TIME_ASSIGNMENT ( #113, #173, ( #27 ) ) ;
#165 = ORIENTED_EDGE ( 'NONE', *, *, #55, .T. ) ;
#166 = ORIENTED_EDGE ( 'NONE', *, *, #235, .T. ) ;
#167 = VECTOR ( 'NONE', #153, 1000.000000000000000 ) ;
#168 = CARTESIAN_POINT ( 'NONE',  ( 10.00000000000000178, 9.999999999999998224, 10.00000000000000000 ) ) ;
#169 = MANIFOLD_SOLID_BREP ( 'Í¹Ì¨-À', #79 ) ;
#170 = APPROVAL_STATUS ( 'not_yet_approved' ) ;
#171 = CARTESIAN_POINT ( 'NONE',  ( -9.999999999999998224, 10.00000000000000355, -10.00000000000000000 ) ) ;
#172 = ORIENTED_EDGE ( 'NONE', *, *, #46, .T. ) ;
#173 = DATE_TIME_ROLE ( 'creation_date' ) ;
#174 = FACE_OUTER_BOUND ( 'NONE', #240, .T. ) ;
#175 = DIRECTION ( 'NONE',  ( -0.7071067811865475727, -0.7071067811865474617, 0.000000000000000000 ) ) ;
#176 =( GEOMETRIC_REPRESENTATION_CONTEXT ( 3 ) GLOBAL_UNCERTAINTY_ASSIGNED_CONTEXT ( ( #35 ) ) GLOBAL_UNIT_ASSIGNED_CONTEXT ( ( #276, #1, #279 ) ) REPRESENTATION_CONTEXT ( 'NONE', 'WORKASPACE' ) );
#177 = FACE_OUTER_BOUND ( 'NONE', #245, .T. ) ;
#178 = LINE ( 'NONE', #317, #44 ) ;
#179 = CARTESIAN_POINT ( 'NONE',  ( -10.00000000000000178, -9.999999999999996447, -10.00000000000000000 ) ) ;
#180 = PLANE ( 'NONE',  #102 ) ;
#181 = EDGE_CURVE ( 'NONE', #199, #90, #283, .T. ) ;
#182 = CARTESIAN_POINT ( 'NONE',  ( 10.00000000000000178, 9.999999999999998224, -10.00000000000000000 ) ) ;
#183 = AXIS2_PLACEMENT_3D ( 'NONE', #69, #19, #270 ) ;
#184 = LINE ( 'NONE', #106, #305 ) ;
#185 = DIRECTION ( 'NONE',  ( -0.7071067811865475727, -0.7071067811865474617, 0.000000000000000000 ) ) ;
#186 = ADVANCED_FACE ( 'NONE', ( #128 ), #300, .F. ) ;
#187 = VECTOR ( 'NONE', #175, 1000.000000000000000 ) ;
#188 = CALENDAR_DATE ( 2020, 22, 12 ) ;
#189 = COORDINATED_UNIVERSAL_TIME_OFFSET ( 8, 0, .AHEAD. ) ;
#190 = VERTEX_POINT ( 'NONE', #51 ) ;
#191 = CC_DESIGN_APPROVAL ( #156, ( #229 ) ) ;
#192 = APPLICATION_CONTEXT ( 'configuration controlled 3d designs of mechanical parts and assemblies' ) ;
#193 = ORIENTED_EDGE ( 'NONE', *, *, #124, .F. ) ;
#194 = ADVANCED_FACE ( 'NONE', ( #26 ), #157, .F. ) ;
#195 = ORIENTED_EDGE ( 'NONE', *, *, #264, .T. ) ;
#196 = PERSON_AND_ORGANIZATION ( #101, #83 ) ;
#197 = CC_DESIGN_APPROVAL ( #159, ( #315 ) ) ;
#198 = FACE_OUTER_BOUND ( 'NONE', #41, .T. ) ;
#199 = VERTEX_POINT ( 'NONE', #258 ) ;
#200 = ORIENTED_EDGE ( 'NONE', *, *, #181, .T. ) ;
#201 = CC_DESIGN_PERSON_AND_ORGANIZATION_ASSIGNMENT ( #294, #263, ( #229 ) ) ;
#202 = PLANE ( 'NONE',  #256 ) ;
#203 = FACE_OUTER_BOUND ( 'NONE', #8, .T. ) ;
#204 = PRODUCT ( 'BK7-LPBSC-20-1550', 'BK7-LPBSC-20-1550', '', ( #118 ) ) ;
#205 = CARTESIAN_POINT ( 'NONE',  ( 10.00000000000000178, 9.999999999999998224, -10.00000000000000000 ) ) ;
#206 = DIRECTION ( 'NONE',  ( -0.000000000000000000, 0.000000000000000000, -1.000000000000000000 ) ) ;
#207 = DIRECTION ( 'NONE',  ( 1.000000000000000000, -2.220446049250313081E-16, 0.000000000000000000 ) ) ;
#208 = PERSON_AND_ORGANIZATION ( #101, #83 ) ;
#209 = APPROVAL_DATE_TIME ( #261, #133 ) ;
#210 = ORIENTED_EDGE ( 'NONE', *, *, #225, .F. ) ;
#211 = APPROVAL_DATE_TIME ( #136, #156 ) ;
#212 = EDGE_LOOP ( 'NONE', ( #195, #313, #193, #14 ) ) ;
#213 = VECTOR ( 'NONE', #40, 1000.000000000000000 ) ;
#214 = EDGE_LOOP ( 'NONE', ( #266, #265, #11, #165 ) ) ;
#215 = ADVANCED_BREP_SHAPE_REPRESENTATION ( 'BK7-LPBSC-20-1550', ( #169, #57, #111 ), #176 ) ;
#216 = ORIENTED_EDGE ( 'NONE', *, *, #320, .F. ) ;
#217 = DIRECTION ( 'NONE',  ( 0.000000000000000000, 1.000000000000000000, 0.000000000000000000 ) ) ;
#218 = ORIENTED_EDGE ( 'NONE', *, *, #231, .F. ) ;
#219 = PERSON_AND_ORGANIZATION ( #101, #83 ) ;
#220 = LOCAL_TIME ( 11, 12, 46.00000000000000000, #307 ) ;
#221 = ORIENTED_EDGE ( 'NONE', *, *, #320, .T. ) ;
#222 = DIRECTION ( 'NONE',  ( -0.000000000000000000, -0.000000000000000000, -1.000000000000000000 ) ) ;
#223 = DIRECTION ( 'NONE',  ( 0.000000000000000000, -0.000000000000000000, 1.000000000000000000 ) ) ;
#224 = CARTESIAN_POINT ( 'NONE',  ( -9.999999999999998224, -10.00000000000000000, -10.00000000000000000 ) ) ;
#225 = EDGE_CURVE ( 'NONE', #287, #190, #233, .T. ) ;
#226 = FACE_OUTER_BOUND ( 'NONE', #212, .T. ) ;
#227 = PRODUCT_DEFINITION_SHAPE ( 'NONE', 'NONE',  #27 ) ;
#228 = LINE ( 'NONE', #92, #140 ) ;
#229 = PRODUCT_DEFINITION_FORMATION_WITH_SPECIFIED_SOURCE ( 'ANY', '', #204, .NOT_KNOWN. ) ;
#230 = DIRECTION ( 'NONE',  ( -0.000000000000000000, 0.000000000000000000, -1.000000000000000000 ) ) ;
#231 = EDGE_CURVE ( 'NONE', #190, #243, #255, .T. ) ;
#232 = CARTESIAN_POINT ( 'NONE',  ( -9.999999999999998224, -10.00000000000000000, 10.00000000000000000 ) ) ;
#233 = LINE ( 'NONE', #50, #267 ) ;
#234 = APPROVAL_PERSON_ORGANIZATION ( #196, #156, #161 ) ;
#235 = EDGE_CURVE ( 'NONE', #199, #287, #3, .T. ) ;
#236 = DIRECTION ( 'NONE',  ( 0.000000000000000000, 0.000000000000000000, 1.000000000000000000 ) ) ;
#237 = COORDINATED_UNIVERSAL_TIME_OFFSET ( 8, 0, .AHEAD. ) ;
#238 = LOCAL_TIME ( 11, 12, 46.00000000000000000, #189 ) ;
#239 = PRODUCT_RELATED_PRODUCT_CATEGORY ( 'detail', '', ( #204 ) ) ;
#240 = EDGE_LOOP ( 'NONE', ( #172, #116, #98 ) ) ;
#241 = ORIENTED_EDGE ( 'NONE', *, *, #86, .F. ) ;
#242 = ADVANCED_FACE ( 'NONE', ( #284 ), #53, .F. ) ;
#243 = VERTEX_POINT ( 'NONE', #179 ) ;
#244 = PLANE ( 'NONE',  #16 ) ;
#245 = EDGE_LOOP ( 'NONE', ( #78, #103, #10 ) ) ;
#246 = APPLICATION_PROTOCOL_DEFINITION ( 'international standard', 'config_control_design', 1994, #192 ) ;
#247 = CARTESIAN_POINT ( 'NONE',  ( -9.999999999999998224, -10.00000000000000000, 10.00000000000000000 ) ) ;
#248 = CARTESIAN_POINT ( 'NONE',  ( 10.00000000000000000, 10.00000000000000000, 10.00000000000000000 ) ) ;
#249 = DIRECTION ( 'NONE',  ( 2.220446049250313081E-16, 1.000000000000000000, 0.000000000000000000 ) ) ;
#250 = DIRECTION ( 'NONE',  ( 2.220446049250313081E-16, 1.000000000000000000, 0.000000000000000000 ) ) ;
#251 = EDGE_CURVE ( 'NONE', #243, #90, #281, .T. ) ;
#252 = CARTESIAN_POINT ( 'NONE',  ( -9.999999999999998224, -10.00000000000000000, -10.00000000000000000 ) ) ;
#253 = DIRECTION ( 'NONE',  ( -0.7071067811865475727, -0.7071067811865474617, 0.000000000000000000 ) ) ;
#254 = EDGE_CURVE ( 'NONE', #139, #64, #178, .T. ) ;
#255 = LINE ( 'NONE', #105, #277 ) ;
#256 = AXIS2_PLACEMENT_3D ( 'NONE', #296, #293, #249 ) ;
#257 = CARTESIAN_POINT ( 'NONE',  ( 0.000000000000000000, 0.000000000000000000, -10.00000000000000000 ) ) ;
#258 = CARTESIAN_POINT ( 'NONE',  ( -9.999999999999998224, 10.00000000000000355, 10.00000000000000000 ) ) ;
#259 = EDGE_CURVE ( 'NONE', #141, #37, #49, .T. ) ;
#260 = VECTOR ( 'NONE', #250, 1000.000000000000000 ) ;
#261 = DATE_AND_TIME ( #160, #54 ) ;
#262 = CLOSED_SHELL ( 'NONE', ( #68, #290, #194, #30, #186 ) ) ;
#263 = PERSON_AND_ORGANIZATION_ROLE ( 'creator' ) ;
#264 = EDGE_CURVE ( 'NONE', #37, #271, #76, .T. ) ;
#265 = ORIENTED_EDGE ( 'NONE', *, *, #21, .F. ) ;
#266 = ORIENTED_EDGE ( 'NONE', *, *, #86, .T. ) ;
#267 = VECTOR ( 'NONE', #230, 1000.000000000000000 ) ;
#268 = PLANE ( 'NONE',  #183 ) ;
#269 = APPROVAL_ROLE ( '' ) ;
#270 = DIRECTION ( 'NONE',  ( 1.000000000000000000, 0.000000000000000000, 0.000000000000000000 ) ) ;
#271 = VERTEX_POINT ( 'NONE', #74 ) ;
#272 = APPROVAL_STATUS ( 'not_yet_approved' ) ;
#273 = CC_DESIGN_PERSON_AND_ORGANIZATION_ASSIGNMENT ( #7, #67, ( #27 ) ) ;
#274 = DIRECTION ( 'NONE',  ( -0.7071067811865475727, -0.7071067811865474617, 0.000000000000000000 ) ) ;
#275 = ORIENTED_EDGE ( 'NONE', *, *, #251, .F. ) ;
#276 =( LENGTH_UNIT ( ) NAMED_UNIT ( * ) SI_UNIT ( .MILLI., .METRE. ) );
#277 = VECTOR ( 'NONE', #185, 1000.000000000000000 ) ;
#278 = DIRECTION ( 'NONE',  ( 0.7071067811865475727, 0.7071067811865474617, 0.000000000000000000 ) ) ;
#279 =( NAMED_UNIT ( * ) SI_UNIT ( $, .STERADIAN. ) SOLID_ANGLE_UNIT ( ) );
#280 = PLANE ( 'NONE',  #120 ) ;
#281 = LINE ( 'NONE', #25, #167 ) ;
#282 = LOCAL_TIME ( 11, 12, 46.00000000000000000, #163 ) ;
#283 = LINE ( 'NONE', #29, #63 ) ;
#284 = FACE_OUTER_BOUND ( 'NONE', #214, .T. ) ;
#285 = CALENDAR_DATE ( 2020, 22, 12 ) ;
#286 = CALENDAR_DATE ( 2020, 22, 12 ) ;
#287 = VERTEX_POINT ( 'NONE', #248 ) ;
#288 = ADVANCED_FACE ( 'NONE', ( #70 ), #280, .F. ) ;
#289 = ORIENTED_EDGE ( 'NONE', *, *, #231, .T. ) ;
#290 = ADVANCED_FACE ( 'NONE', ( #23 ), #180, .F. ) ;
#291 = ORIENTED_EDGE ( 'NONE', *, *, #2, .T. ) ;
#292 = VECTOR ( 'NONE', #222, 1000.000000000000000 ) ;
#293 = DIRECTION ( 'NONE',  ( 0.000000000000000000, -0.000000000000000000, 1.000000000000000000 ) ) ;
#294 = PERSON_AND_ORGANIZATION ( #101, #83 ) ;
#295 = CARTESIAN_POINT ( 'NONE',  ( 10.00000000000000000, 10.00000000000000000, 10.00000000000000000 ) ) ;
#296 = CARTESIAN_POINT ( 'NONE',  ( 0.000000000000000000, 0.000000000000000000, 10.00000000000000000 ) ) ;
#297 = APPLICATION_PROTOCOL_DEFINITION ( 'international standard', 'config_control_design', 1994, #158 ) ;
#298 = EDGE_CURVE ( 'NONE', #71, #37, #99, .T. ) ;
#299 = DIRECTION ( 'NONE',  ( 0.7071067811865474617, -0.7071067811865475727, 0.000000000000000000 ) ) ;
#300 = PLANE ( 'NONE',  #24 ) ;
#301 = EDGE_LOOP ( 'NONE', ( #316, #114, #94, #60 ) ) ;
#302 = DIRECTION ( 'NONE',  ( 2.220446049250313081E-16, 1.000000000000000000, 0.000000000000000000 ) ) ;
#303 = CC_DESIGN_SECURITY_CLASSIFICATION ( #315, ( #229 ) ) ;
#304 = DATE_AND_TIME ( #13, #220 ) ;
#305 = VECTOR ( 'NONE', #206, 1000.000000000000000 ) ;
#306 = DIRECTION ( 'NONE',  ( 1.000000000000000000, 0.000000000000000000, 0.000000000000000000 ) ) ;
#307 = COORDINATED_UNIVERSAL_TIME_OFFSET ( 8, 0, .AHEAD. ) ;
#308 = EDGE_LOOP ( 'NONE', ( #289, #48, #221 ) ) ;
#309 = PERSON_AND_ORGANIZATION_ROLE ( 'design_owner' ) ;
#310 = APPROVAL_PERSON_ORGANIZATION ( #219, #159, #269 ) ;
#311 = ORIENTED_EDGE ( 'NONE', *, *, #264, .F. ) ;
#312 = CC_DESIGN_PERSON_AND_ORGANIZATION_ASSIGNMENT ( #4, #33, ( #229 ) ) ;
#313 = ORIENTED_EDGE ( 'NONE', *, *, #55, .F. ) ;
#314 = DATE_AND_TIME ( #286, #58 ) ;
#315 = SECURITY_CLASSIFICATION ( '', '', #65 ) ;
#316 = ORIENTED_EDGE ( 'NONE', *, *, #259, .T. ) ;
#317 = CARTESIAN_POINT ( 'NONE',  ( 10.00000000000000178, 9.999999999999998224, 10.00000000000000000 ) ) ;
#318 = ORIENTED_EDGE ( 'NONE', *, *, #181, .F. ) ;
#319 = CARTESIAN_POINT ( 'NONE',  ( 10.00000000000000178, 9.999999999999998224, 10.00000000000000000 ) ) ;
#320 = EDGE_CURVE ( 'NONE', #90, #190, #72, .T. ) ;
#321 = LINE ( 'NONE', #22, #213 ) ;
ENDSEC;
END-ISO-10303-21;
